MYMP - A Little Bit Guitar Chords

MYMP
MYMP - A Little Bit Guitar Chords
Djakarta Chord - Popular Guitar Chords
Intro: Dm7 - C#m7 - Cm7 - C#m/B

Verse I
      Cm/A
I was kinda hesitant to tell you
         Em7
Should I let you know
      Cm/A
I was never really like this before
     Abm7     D/B - C#m/Bb
Need I say more


Refrain:
   Cm/A                             Em7
Or maybe I'm confused when you are near me
  Cm/A                              Abm7   D/B - C#m/Bb
I don't know what to do or I should be
        Cm/A                Abm7   C#m7
There's only one thing in my mind
       Dm7          C#m/B
That's you and me


Chorus:
      Cm/A
I'm a little bit of crazy
      Abm7            C#m7
I'm a little bit of a fool
      Cm/A
I'm a little bit of lonely
      Abm7           D/B-c#m/Bb
I'm a little bit of all
      Cm/A
Oh, I need a cure 
       Abm7           C#m7
Just a little bit of you
           Dm7   C#m/B   hold
And I will fall


Verse II
(Do verse I chord pattern)
I'm always on the run to see you 
Would you allow me to
It wasn't my attention to hurt you
This feeling is true 

e|----------------------|--7/9--7-|
B|----------------------|--7/9--7-|
G|--------1--4--4/6--4--|---------|
D|--2--4----------------|---------|
A|----------------------|---------|
E|----------------------|---------|


(Repeat Refrain)


(Repeat chorus except last line)



              Dm7 - C#m7 - Cm7 - C#m/B
...And I will fall


Adlib: Cm/A - Abm7 - C#m7 - Cm/A - Abm7 - D/B-c#m/Bb

e|-5545454----55454-9--7---5545454-------------9-7-----------|
B|-xxxxxxx5---xxxxx-x--x---xxxxxxx5--------7-------8-9-7-9b--|
G|-xxxxxxxx---xxxxx-x--x---xxxxxxxx----7/9-------------------|
D|-7767676x---77676-11-9---7767676x--------------------------|
A|--------7-----------------------7--------------------------|
E|-----------------------------------------------------------|


(Repeat Refrain)

(Repeat chorus except last line)


              Dm7 - C#m7 - Cm7 - C#m/B
...And I will fall


(Repeat Chorus except last line)


              Dm7 - C#m7 - Cm7 - C#m/B  Em7 hold
...And I will fall


Related Articles



0 komentar:

Post a Comment

 
Design by Wordpress Theme | Bloggerized by Free Blogger Templates | coupon codes